ISO-10303-21;
HEADER;
FILE_DESCRIPTION (( 'STEP AP203' ),
    '1' );
FILE_NAME ('Entry thread seal - Metric and NPT.25 Metric.STEP',
    '2013-02-07T10:14:33',
    ( '' ),
    ( '' ),
    'SwSTEP 2.0',
    'SolidWorks 2012',
    '' );
FILE_SCHEMA (( 'CONFIG_CONTROL_DESIGN' ));
ENDSEC;

DATA;
#1 = ORIENTED_EDGE ( 'NONE', *, *, #232, .T. ) ;
#2 = ORIENTED_EDGE ( 'NONE', *, *, #123, .F. ) ;
#3 = ORIENTED_EDGE ( 'NONE', *, *, #249, .T. ) ;
#4 = EDGE_CURVE ( 'NONE', #105, #108, #166, .T. ) ;
#5 = EDGE_CURVE ( 'NONE', #109, #104, #169, .T. ) ;
#6 = EDGE_CURVE ( 'NONE', #108, #107, #171, .T. ) ;
#7 = EDGE_CURVE ( 'NONE', #110, #103, #168, .T. ) ;
#8 = EDGE_CURVE ( 'NONE', #106, #105, #170, .T. ) ;
#9 = EDGE_CURVE ( 'NONE', #109, #110, #173, .T. ) ;
#10 = EDGE_CURVE ( 'NONE', #105, #106, #174, .T. ) ;
#11 = ORIENTED_EDGE ( 'NONE', *, *, #9, .F. ) ;
#12 = PRODUCT_DEFINITION_SHAPE ( 'NONE', 'NONE',  #141 ) ;
#13 = DESIGN_CONTEXT ( 'detailed design', #91, 'design' ) ;
#14 = APPROVAL_STATUS ( 'not_yet_approved' ) ;
#15 = PERSON_AND_ORGANIZATION_ROLE ( 'classification_officer' ) ;
#16 = SECURITY_CLASSIFICATION_LEVEL ( 'unclassified' ) ;
#17 = PERSON_AND_ORGANIZATION_ROLE ( 'design_supplier' ) ;
#18 = APPROVAL_ROLE ( '' ) ;
#19 = PERSON_AND_ORGANIZATION_ROLE ( 'creator' ) ;
#20 = CARTESIAN_POINT ( 'NONE',  ( -39.90653472252495200, 0.0000000000000000000, 0.0000000000000000000 ) ) ;
#21 = CARTESIAN_POINT ( 'NONE',  ( -1.000000000000000900, 0.0000000000000000000, 0.0000000000000000000 ) ) ;
#22 = CARTESIAN_POINT ( 'NONE',  ( -39.90653472252495200, 2.106392494533447400E-015, -17.19999999999999900 ) ) ;
#23 = DIRECTION ( 'NONE',  ( 0.0000000000000000000, 0.0000000000000000000, 1.000000000000000000 ) ) ;
#24 = DIRECTION ( 'NONE',  ( -1.000000000000000000, -0.0000000000000000000, -0.0000000000000000000 ) ) ;
#25 = CARTESIAN_POINT ( 'NONE',  ( 1.000000000000000900, 0.0000000000000000000, 0.0000000000000000000 ) ) ;
#26 = CARTESIAN_POINT ( 'NONE',  ( -39.90653472252495200, 1.530808498934191500E-015, -12.50000000000000000 ) ) ;
#27 = DIRECTION ( 'NONE',  ( 0.0000000000000000000, 0.0000000000000000000, 1.000000000000000000 ) ) ;
#28 = DIRECTION ( 'NONE',  ( 0.0000000000000000000, 0.0000000000000000000, 1.000000000000000000 ) ) ;
#29 = DIRECTION ( 'NONE',  ( -1.000000000000000000, -0.0000000000000000000, -0.0000000000000000000 ) ) ;
#30 = CARTESIAN_POINT ( 'NONE',  ( -1.000000000000000900, 0.0000000000000000000, 0.0000000000000000000 ) ) ;
#31 = CARTESIAN_POINT ( 'NONE',  ( 1.000000000000000900, 0.0000000000000000000, 0.0000000000000000000 ) ) ;
#32 = CARTESIAN_POINT ( 'NONE',  ( -1.000000000000000900, 0.0000000000000000000, 12.50000000000000000 ) ) ;
#33 = CARTESIAN_POINT ( 'NONE',  ( -1.000000000000000900, 1.530808498934191500E-015, -12.50000000000000000 ) ) ;
#34 = CARTESIAN_POINT ( 'NONE',  ( -1.000000000000000900, 2.106392494533447400E-015, -17.19999999999999900 ) ) ;
#35 = CARTESIAN_POINT ( 'NONE',  ( 1.000000000000000900, 0.0000000000000000000, 17.19999999999999900 ) ) ;
#36 = DIRECTION ( 'NONE',  ( 0.0000000000000000000, 0.0000000000000000000, 1.000000000000000000 ) ) ;
#37 = PLANE ( 'NONE',  #129 ) ;
#38 = CARTESIAN_POINT ( 'NONE',  ( 1.000000000000000900, 0.0000000000000000000, 12.50000000000000000 ) ) ;
#39 = CARTESIAN_POINT ( 'NONE',  ( -39.90653472252495200, 0.0000000000000000000, 0.0000000000000000000 ) ) ;
#40 = CARTESIAN_POINT ( 'NONE',  ( 0.9999999999999983300, 12.50000000000000000, 0.0000000000000000000 ) ) ;
#41 = DIRECTION ( 'NONE',  ( -1.000000000000000000, -0.0000000000000000000, -0.0000000000000000000 ) ) ;
#42 = CARTESIAN_POINT ( 'NONE',  ( -39.90653472252495200, 0.0000000000000000000, 0.0000000000000000000 ) ) ;
#43 = DIRECTION ( 'NONE',  ( -1.000000000000000000, -0.0000000000000000000, -0.0000000000000000000 ) ) ;
#44 = CARTESIAN_POINT ( 'NONE',  ( -1.000000000000000900, 0.0000000000000000000, 17.19999999999999900 ) ) ;
#45 = CARTESIAN_POINT ( 'NONE',  ( 1.000000000000000900, 2.106392494533447400E-015, -17.19999999999999900 ) ) ;
#46 = DIRECTION ( 'NONE',  ( 0.0000000000000000000, 0.0000000000000000000, 1.000000000000000000 ) ) ;
#47 = DIRECTION ( 'NONE',  ( -1.000000000000000000, -0.0000000000000000000, -0.0000000000000000000 ) ) ;
#48 = CARTESIAN_POINT ( 'NONE',  ( -1.000000000000001800, 17.19999999999999900, 0.0000000000000000000 ) ) ;
#49 = DIRECTION ( 'NONE',  ( 0.0000000000000000000, 0.0000000000000000000, 1.000000000000000000 ) ) ;
#50 = DIRECTION ( 'NONE',  ( 0.0000000000000000000, 0.0000000000000000000, 1.000000000000000000 ) ) ;
#51 = DIRECTION ( 'NONE',  ( 0.0000000000000000000, 0.0000000000000000000, -1.000000000000000000 ) ) ;
#52 = DIRECTION ( 'NONE',  ( 1.000000000000000000, 0.0000000000000000000, 0.0000000000000000000 ) ) ;
#53 = DIRECTION ( 'NONE',  ( 0.0000000000000000000, 0.0000000000000000000, 1.000000000000000000 ) ) ;
#54 = DIRECTION ( 'NONE',  ( -1.000000000000000000, -0.0000000000000000000, -0.0000000000000000000 ) ) ;
#55 = CARTESIAN_POINT ( 'NONE',  ( 1.000000000000000900, 0.0000000000000000000, 0.0000000000000000000 ) ) ;
#56 = CARTESIAN_POINT ( 'NONE',  ( -39.90653472252495200, 0.0000000000000000000, 17.19999999999999900 ) ) ;
#57 = DIRECTION ( 'NONE',  ( 0.0000000000000000000, 0.0000000000000000000, 1.000000000000000000 ) ) ;
#58 = CARTESIAN_POINT ( 'NONE',  ( -39.90653472252495200, 0.0000000000000000000, 12.50000000000000000 ) ) ;
#59 = DIRECTION ( 'NONE',  ( -1.000000000000000000, -0.0000000000000000000, -0.0000000000000000000 ) ) ;
#60 = DATE_TIME_ROLE ( 'classification_date' ) ;
#61 = APPROVAL_STATUS ( 'not_yet_approved' ) ;
#62 = APPROVAL_ROLE ( '' ) ;
#63 = CARTESIAN_POINT ( 'NONE',  ( 1.000000000000000900, 1.530808498934191500E-015, -12.50000000000000000 ) ) ;
#64 = CARTESIAN_POINT ( 'NONE',  ( 1.000000000000000900, 0.0000000000000000000, 0.0000000000000000000 ) ) ;
#65 = DIRECTION ( 'NONE',  ( -1.000000000000000000, -0.0000000000000000000, -0.0000000000000000000 ) ) ;
#66 = DIRECTION ( 'NONE',  ( 0.0000000000000000000, 0.0000000000000000000, 1.000000000000000000 ) ) ;
#67 = PLANE ( 'NONE',  #133 ) ;
#68 = DIRECTION ( 'NONE',  ( -1.000000000000000000, -0.0000000000000000000, -0.0000000000000000000 ) ) ;
#69 = CARTESIAN_POINT ( 'NONE',  ( -39.90653472252495200, 0.0000000000000000000, 0.0000000000000000000 ) ) ;
#70 = DIRECTION ( 'NONE',  ( -1.000000000000000000, -0.0000000000000000000, -0.0000000000000000000 ) ) ;
#71 = DIRECTION ( 'NONE',  ( -1.000000000000000000, -0.0000000000000000000, -0.0000000000000000000 ) ) ;
#72 = DIRECTION ( 'NONE',  ( -1.000000000000000000, -0.0000000000000000000, -0.0000000000000000000 ) ) ;
#73 = CARTESIAN_POINT ( 'NONE',  ( -1.000000000000000900, 0.0000000000000000000, 0.0000000000000000000 ) ) ;
#74 = DIRECTION ( 'NONE',  ( -1.000000000000000000, -0.0000000000000000000, -0.0000000000000000000 ) ) ;
#75 = DIRECTION ( 'NONE',  ( 0.0000000000000000000, 0.0000000000000000000, 1.000000000000000000 ) ) ;
#76 = DIRECTION ( 'NONE',  ( -1.000000000000000000, 0.0000000000000000000, -0.0000000000000000000 ) ) ;
#77 = DIRECTION ( 'NONE',  ( -0.0000000000000000000, 0.0000000000000000000, 1.000000000000000000 ) ) ;
#78 = CARTESIAN_POINT ( 'NONE',  ( -1.000000000000000900, 0.0000000000000000000, 0.0000000000000000000 ) ) ;
#79 = DIRECTION ( 'NONE',  ( -1.000000000000000000, -0.0000000000000000000, -0.0000000000000000000 ) ) ;
#80 = DIRECTION ( 'NONE',  ( -1.000000000000000000, -0.0000000000000000000, -0.0000000000000000000 ) ) ;
#81 = CARTESIAN_POINT ( 'NONE',  ( 0.0000000000000000000, 0.0000000000000000000, 0.0000000000000000000 ) ) ;
#82 =( LENGTH_UNIT ( ) NAMED_UNIT ( * ) SI_UNIT ( .MILLI., .METRE. ) );
#83 =( NAMED_UNIT ( * ) PLANE_ANGLE_UNIT ( ) SI_UNIT ( $, .RADIAN. ) );
#84 =( NAMED_UNIT ( * ) SI_UNIT ( $, .STERADIAN. ) SOLID_ANGLE_UNIT ( ) );
#85 = APPLICATION_PROTOCOL_DEFINITION ( 'international standard', 'config_control_design', 1994, #86 ) ;
#86 = APPLICATION_CONTEXT ( 'configuration controlled 3d designs of mechanical parts and assemblies' ) ;
#87 = DIRECTION ( 'NONE',  ( 0.0000000000000000000, 0.0000000000000000000, 1.000000000000000000 ) ) ;
#88 = DIRECTION ( 'NONE',  ( 1.000000000000000000, 0.0000000000000000000, 0.0000000000000000000 ) ) ;
#89 = MECHANICAL_CONTEXT ( 'NONE', #86, 'mechanical' ) ;
#90 = PERSON_AND_ORGANIZATION_ROLE ( 'design_owner' ) ;
#91 = APPLICATION_CONTEXT ( 'configuration controlled 3d designs of mechanical parts and assemblies' ) ;
#92 = APPLICATION_PROTOCOL_DEFINITION ( 'international standard', 'config_control_design', 1994, #91 ) ;
#93 = APPROVAL_STATUS ( 'not_yet_approved' ) ;
#94 = APPROVAL_ROLE ( '' ) ;
#95 = PERSON_AND_ORGANIZATION_ROLE ( 'creator' ) ;
#96 = DATE_TIME_ROLE ( 'creation_date' ) ;
#97 = DIRECTION ( 'NONE',  ( 0.0000000000000000000, 0.0000000000000000000, 1.000000000000000000 ) ) ;
#98 = DIRECTION ( 'NONE',  ( -1.000000000000000000, -0.0000000000000000000, -0.0000000000000000000 ) ) ;
#99 = ADVANCED_BREP_SHAPE_REPRESENTATION ( 'Entry thread seal - Metric and NPT.25 Metric', ( #101, #139 ), #138 ) ;
#100 = UNCERTAINTY_MEASURE_WITH_UNIT (LENGTH_MEASURE( 1.000000000000000100E-005 ), #82, 'distance_accuracy_value', 'NONE');
#101 = MANIFOLD_SOLID_BREP ( 'Revolve1', #165 ) ;
#102 = EDGE_LOOP ( 'NONE', ( #153, #154 ) ) ;
#103 = VERTEX_POINT ( 'NONE', #33 ) ;
#104 = VERTEX_POINT ( 'NONE', #63 ) ;
#105 = VERTEX_POINT ( 'NONE', #35 ) ;
#106 = VERTEX_POINT ( 'NONE', #45 ) ;
#107 = VERTEX_POINT ( 'NONE', #34 ) ;
#108 = VERTEX_POINT ( 'NONE', #44 ) ;
#109 = VERTEX_POINT ( 'NONE', #38 ) ;
#110 = VERTEX_POINT ( 'NONE', #32 ) ;
#111 = EDGE_LOOP ( 'NONE', ( #161, #162 ) ) ;
#112 = EDGE_LOOP ( 'NONE', ( #149, #150, #151, #152 ) ) ;
#113 = EDGE_LOOP ( 'NONE', ( #163, #164 ) ) ;
#114 = ADVANCED_FACE ( 'NONE', ( #183, #177 ), #37, .F. ) ;
#115 = ADVANCED_FACE ( 'NONE', ( #179 ), #172, .T. ) ;
#116 = ADVANCED_FACE ( 'NONE', ( #180 ), #184, .T. ) ;
#117 = ADVANCED_FACE ( 'NONE', ( #182, #185 ), #67, .F. ) ;
#118 = ADVANCED_FACE ( 'NONE', ( #181 ), #188, .F. ) ;
#119 = ADVANCED_FACE ( 'NONE', ( #186 ), #190, .F. ) ;
#120 = PRODUCT ( 'Entry thread seal - Metric and NPT.25 Metric', 'Entry thread seal - Metric and NPT.25 Metric', '', ( #89 ) ) ;
#121 = PERSON ( 'UNSPECIFIED', 'UNSPECIFIED', 'UNSPECIFIED', ('UNSPECIFIED'), ('UNSPECIFIED'), ('UNSPECIFIED') ) ;
#122 = EDGE_CURVE ( 'NONE', #103, #110, #189, .T. ) ;
#123 = EDGE_CURVE ( 'NONE', #104, #109, #176, .T. ) ;
#124 = AXIS2_PLACEMENT_3D ( 'NONE', #55, #54, #53 ) ;
#125 = AXIS2_PLACEMENT_3D ( 'NONE', #78, #79, #57 ) ;
#126 = AXIS2_PLACEMENT_3D ( 'NONE', #30, #29, #28 ) ;
#127 = AXIS2_PLACEMENT_3D ( 'NONE', #31, #47, #46 ) ;
#128 = AXIS2_PLACEMENT_3D ( 'NONE', #64, #65, #36 ) ;
#129 = AXIS2_PLACEMENT_3D ( 'NONE', #48, #52, #51 ) ;
#130 = AXIS2_PLACEMENT_3D ( 'NONE', #73, #74, #27 ) ;
#131 = AXIS2_PLACEMENT_3D ( 'NONE', #42, #43, #50 ) ;
#132 = AXIS2_PLACEMENT_3D ( 'NONE', #39, #41, #49 ) ;
#133 = AXIS2_PLACEMENT_3D ( 'NONE', #40, #76, #77 ) ;
#134 = AXIS2_PLACEMENT_3D ( 'NONE', #25, #24, #23 ) ;
#135 = AXIS2_PLACEMENT_3D ( 'NONE', #69, #68, #75 ) ;
#136 = AXIS2_PLACEMENT_3D ( 'NONE', #20, #72, #66 ) ;
#137 = AXIS2_PLACEMENT_3D ( 'NONE', #21, #80, #97 ) ;
#138 =( GEOMETRIC_REPRESENTATION_CONTEXT ( 3 ) GLOBAL_UNCERTAINTY_ASSIGNED_CONTEXT ( ( #100 ) ) GLOBAL_UNIT_ASSIGNED_CONTEXT ( ( #82, #83, #84 ) ) REPRESENTATION_CONTEXT ( 'NONE', 'WORKASPACE' ) );
#139 = AXIS2_PLACEMENT_3D ( 'NONE', #81, #87, #88 ) ;
#140 = CC_DESIGN_PERSON_AND_ORGANIZATION_ASSIGNMENT ( #196, #90, ( #120 ) ) ;
#141 = PRODUCT_DEFINITION ( 'UNKNOWN', '', #146, #13 ) ;
#142 = APPROVAL ( #93, 'UNSPECIFIED' ) ;
#143 = CC_DESIGN_APPROVAL ( #142, ( #141 ) ) ;
#144 = CC_DESIGN_PERSON_AND_ORGANIZATION_ASSIGNMENT ( #204, #95, ( #141 ) ) ;
#145 = CC_DESIGN_DATE_AND_TIME_ASSIGNMENT ( #208, #96, ( #141 ) ) ;
#146 = PRODUCT_DEFINITION_FORMATION_WITH_SPECIFIED_SOURCE ( 'ANY', '', #120, .NOT_KNOWN. ) ;
#147 = ORIENTED_EDGE ( 'NONE', *, *, #6, .F. ) ;
#148 = ORIENTED_EDGE ( 'NONE', *, *, #4, .F. ) ;
#149 = ORIENTED_EDGE ( 'NONE', *, *, #249, .F. ) ;
#150 = ORIENTED_EDGE ( 'NONE', *, *, #8, .T. ) ;
#151 = ORIENTED_EDGE ( 'NONE', *, *, #4, .T. ) ;
#152 = ORIENTED_EDGE ( 'NONE', *, *, #231, .F. ) ;
#153 = ORIENTED_EDGE ( 'NONE', *, *, #7, .F. ) ;
#154 = ORIENTED_EDGE ( 'NONE', *, *, #122, .F. ) ;
#155 = ORIENTED_EDGE ( 'NONE', *, *, #6, .T. ) ;
#156 = ORIENTED_EDGE ( 'NONE', *, *, #231, .T. ) ;
#157 = ORIENTED_EDGE ( 'NONE', *, *, #232, .F. ) ;
#158 = ORIENTED_EDGE ( 'NONE', *, *, #5, .F. ) ;
#159 = ORIENTED_EDGE ( 'NONE', *, *, #9, .T. ) ;
#160 = ORIENTED_EDGE ( 'NONE', *, *, #7, .T. ) ;
#161 = ORIENTED_EDGE ( 'NONE', *, *, #10, .F. ) ;
#162 = ORIENTED_EDGE ( 'NONE', *, *, #8, .F. ) ;
#163 = ORIENTED_EDGE ( 'NONE', *, *, #5, .T. ) ;
#164 = ORIENTED_EDGE ( 'NONE', *, *, #123, .T. ) ;
#165 = CLOSED_SHELL ( 'NONE', ( #119, #116, #115, #114, #118, #117 ) ) ;
#166 = LINE ( 'NONE', #56, #167 ) ;
#167 = VECTOR ( 'NONE', #59, 1000.000000000000000 ) ;
#168 = CIRCLE ( 'NONE', #126, 12.50000000000000000 ) ;
#169 = CIRCLE ( 'NONE', #124, 12.50000000000000000 ) ;
#170 = CIRCLE ( 'NONE', #127, 17.19999999999999900 ) ;
#171 = CIRCLE ( 'NONE', #125, 17.19999999999999900 ) ;
#172 = CYLINDRICAL_SURFACE ( 'NONE', #131, 17.19999999999999900 ) ;
#173 = LINE ( 'NONE', #58, #175 ) ;
#174 = CIRCLE ( 'NONE', #128, 17.19999999999999900 ) ;
#175 = VECTOR ( 'NONE', #70, 1000.000000000000000 ) ;
#176 = CIRCLE ( 'NONE', #134, 12.50000000000000000 ) ;
#177 = FACE_OUTER_BOUND ( 'NONE', #244, .T. ) ;
#178 = CIRCLE ( 'NONE', #137, 17.19999999999999900 ) ;
#179 = FACE_OUTER_BOUND ( 'NONE', #112, .T. ) ;
#180 = FACE_OUTER_BOUND ( 'NONE', #246, .T. ) ;
#181 = FACE_OUTER_BOUND ( 'NONE', #245, .T. ) ;
#182 = FACE_OUTER_BOUND ( 'NONE', #111, .T. ) ;
#183 = FACE_BOUND ( 'NONE', #102, .T. ) ;
#184 = CYLINDRICAL_SURFACE ( 'NONE', #132, 17.19999999999999900 ) ;
#185 = FACE_BOUND ( 'NONE', #113, .T. ) ;
#186 = FACE_OUTER_BOUND ( 'NONE', #247, .T. ) ;
#187 = LINE ( 'NONE', #26, #192 ) ;
#188 = CYLINDRICAL_SURFACE ( 'NONE', #135, 12.50000000000000000 ) ;
#189 = CIRCLE ( 'NONE', #130, 12.50000000000000000 ) ;
#190 = CYLINDRICAL_SURFACE ( 'NONE', #136, 12.50000000000000000 ) ;
#191 = LINE ( 'NONE', #22, #194 ) ;
#192 = VECTOR ( 'NONE', #71, 1000.000000000000000 ) ;
#193 = ORGANIZATION ( 'UNSPECIFIED', 'UNSPECIFIED', '' ) ;
#194 = VECTOR ( 'NONE', #98, 1000.000000000000000 ) ;
#195 = SHAPE_DEFINITION_REPRESENTATION ( #12, #99 ) ;
#196 = PERSON_AND_ORGANIZATION ( #121, #193 ) ;
#197 = PERSON_AND_ORGANIZATION ( #121, #193 ) ;
#198 = APPROVAL_PERSON_ORGANIZATION ( #197, #142, #94 ) ;
#199 = COORDINATED_UNIVERSAL_TIME_OFFSET ( 0, 0, .AHEAD. ) ;
#200 = LOCAL_TIME ( 10, 14, 33.00000000000000000, #199 ) ;
#201 = CALENDAR_DATE ( 2013, 7, 2 ) ;
#202 = DATE_AND_TIME ( #201, #200 ) ;
#203 = APPROVAL_DATE_TIME ( #202, #142 ) ;
#204 = PERSON_AND_ORGANIZATION ( #121, #193 ) ;
#205 = COORDINATED_UNIVERSAL_TIME_OFFSET ( 0, 0, .AHEAD. ) ;
#206 = LOCAL_TIME ( 10, 14, 33.00000000000000000, #205 ) ;
#207 = CALENDAR_DATE ( 2013, 7, 2 ) ;
#208 = DATE_AND_TIME ( #207, #206 ) ;
#209 = PERSON_AND_ORGANIZATION ( #121, #193 ) ;
#210 = APPROVAL_PERSON_ORGANIZATION ( #209, #233, #18 ) ;
#211 = COORDINATED_UNIVERSAL_TIME_OFFSET ( 0, 0, .AHEAD. ) ;
#212 = LOCAL_TIME ( 10, 14, 33.00000000000000000, #211 ) ;
#213 = CALENDAR_DATE ( 2013, 7, 2 ) ;
#214 = DATE_AND_TIME ( #213, #212 ) ;
#215 = APPROVAL_DATE_TIME ( #214, #233 ) ;
#216 = PERSON_AND_ORGANIZATION ( #121, #193 ) ;
#217 = PERSON_AND_ORGANIZATION ( #121, #193 ) ;
#218 = PERSON_AND_ORGANIZATION ( #121, #193 ) ;
#219 = COORDINATED_UNIVERSAL_TIME_OFFSET ( 0, 0, .AHEAD. ) ;
#220 = LOCAL_TIME ( 10, 14, 33.00000000000000000, #219 ) ;
#221 = CALENDAR_DATE ( 2013, 7, 2 ) ;
#222 = DATE_AND_TIME ( #221, #220 ) ;
#223 = PERSON_AND_ORGANIZATION ( #121, #193 ) ;
#224 = APPROVAL_PERSON_ORGANIZATION ( #223, #240, #62 ) ;
#225 = COORDINATED_UNIVERSAL_TIME_OFFSET ( 0, 0, .AHEAD. ) ;
#226 = LOCAL_TIME ( 10, 14, 33.00000000000000000, #225 ) ;
#227 = CALENDAR_DATE ( 2013, 7, 2 ) ;
#228 = DATE_AND_TIME ( #227, #226 ) ;
#229 = APPROVAL_DATE_TIME ( #228, #240 ) ;
#230 = ORIENTED_EDGE ( 'NONE', *, *, #122, .T. ) ;
#231 = EDGE_CURVE ( 'NONE', #107, #108, #178, .T. ) ;
#232 = EDGE_CURVE ( 'NONE', #104, #103, #187, .T. ) ;
#233 = APPROVAL ( #14, 'UNSPECIFIED' ) ;
#234 = CC_DESIGN_APPROVAL ( #233, ( #146 ) ) ;
#235 = CC_DESIGN_PERSON_AND_ORGANIZATION_ASSIGNMENT ( #216, #19, ( #146 ) ) ;
#236 = CC_DESIGN_PERSON_AND_ORGANIZATION_ASSIGNMENT ( #217, #17, ( #146 ) ) ;
#237 = SECURITY_CLASSIFICATION ( '', '', #16 ) ;
#238 = CC_DESIGN_PERSON_AND_ORGANIZATION_ASSIGNMENT ( #218, #15, ( #237 ) ) ;
#239 = CC_DESIGN_DATE_AND_TIME_ASSIGNMENT ( #222, #60, ( #237 ) ) ;
#240 = APPROVAL ( #61, 'UNSPECIFIED' ) ;
#241 = CC_DESIGN_APPROVAL ( #240, ( #237 ) ) ;
#242 = CC_DESIGN_SECURITY_CLASSIFICATION ( #237, ( #146 ) ) ;
#243 = PRODUCT_RELATED_PRODUCT_CATEGORY ( 'detail', '', ( #120 ) ) ;
#244 = EDGE_LOOP ( 'NONE', ( #155, #156 ) ) ;
#245 = EDGE_LOOP ( 'NONE', ( #157, #158, #159, #160 ) ) ;
#246 = EDGE_LOOP ( 'NONE', ( #248, #3, #147, #148 ) ) ;
#247 = EDGE_LOOP ( 'NONE', ( #2, #1, #230, #11 ) ) ;
#248 = ORIENTED_EDGE ( 'NONE', *, *, #10, .T. ) ;
#249 = EDGE_CURVE ( 'NONE', #106, #107, #191, .T. ) ;
ENDSEC;
END-ISO-10303-21;
